Secrets and Pleasures

(/) Slide Up  (\) Slide Down  (h) Hammer On  (p) Pull Off  (b) Bend (r) Release (v) Vibrato

Secrets and Pleasures by In Our Hearts

Intro (Guitar Plays through ONCE then BASS enters and plays through ONCE)
F|----------------------------------------------------------------------------------------------
C|-----(Guitar playthrough)---------------------------------------------------------------------
G|----------------------------55---------------55---------------55------------------------------
C|-------------------------------555-777-777-7----555-777-77-99---555-777-77777-5555555-7777777-

Verse 1
F|----------------------------------- - -
C|----------------------------------- - -
G|----------------------------------- X4 - pause -
C|-5555555555555555-7777777777777777- - -

Chorus (Same As Intro)
F|--------------------------------------------------------------------
C|--------------------------------------------------------------------
G|---55---------------55---------------55----------------------------- X2
C|-----555-777-777-7----555-777-77-99---555-777-77777-5555555-7777777-

Verse 2
F|----------------------------------- - -
C|----------------------------------- - -
G|----------------------------------- X4 - pause -
C|-5555555555555555-7777777777777777- - -

Chorus
F|--------------------------------------------------------------------
C|--------------------------------------------------------------------
G|---55---------------55---------------55----------------------------- X2
C|-----555-777-777-7----555-777-77-99---555-777-77777-5555555-7777777-

Breakdown
F|----------------------------------------------------------
C|----------------------------------------------------------
G|--5~~---------5~~---------------5~~----------------------- pause
C|-----5~~-7~~-----5~~--7~~7-9-7-----5~~-7~~-55555555-77777-

Outro/Chorus
F|--------------------------------------------------------------------
C|--------------------------------------------------------------------
G|---55---------------55---------------55----------------------------- X2
C|-----555-777-777-7----555-777-77-99---555-777-77777-5555555-7777777-




http://www.guitartabcreator.com
Guitar Tab Creator is intended to store guitar tab created through the tool. It currently does not support in-line text editing. Any text you place in here will be lost. If you need to comment on your tab, please use the "Tab Notes" section located below.