sunday bloody sunday

(/) Slide Up  (\) Slide Down  (h) Hammer On  (p) Pull Off  (b) Bend (r) Release (v) Vibrato

E|-----------------------------------------------------2-----2--2-----
B|--------2-----------2-----------0-----------0-----2--3--2--3--3-----
G|-----2-----2-----2-----2-----2-----2-----2-----2--2--4--2--4--2-----
D|--4-----------2-----------0-----------0-----------2--4--2--4--------
A|--------------------------------------------------------------------
E|--------------------------------------------------------------------



E|--8---5--5--2--5--2--2--5--2--
B|--9---7--5--2--5--3--2--5--3--
G|--10--7--6--2--6--4--2--6--2--
D|--10--7--7--3--7--4--4--7-----
A|--8---5--7--3--7-----4--7-----
E|------------2--5--------------
http://www.guitartabcreator.com
Guitar Tab Creator is intended to store guitar tab created through the tool. It currently does not support in-line text editing. Any text you place in here will be lost. If you need to comment on your tab, please use the "Tab Notes" section located below.