mood for a day

(/) Slide Up  (\) Slide Down  (h) Hammer On  (p) Pull Off  (b) Bend (r) Release (v) Vibrato
E|--3--2--0--------------------3--2-------0---------------------------0-------------
B|--3--2--2--------------2--3-----3--2h3-----2h3p2p0-----3p2--0--2h3-----3p2--0--2--
G|--4--3--3--------3--4-----------4-------------------2-----------------------------
D|--5--4--4--4--5-----------------4-------------------------------------------------
A|--5--4--4-----------------------2--0-----------------------------------2-------1--
E|--3--2--2----------------------------------------------3-------2------------------



E|-----------------3--2--2h3h5p3p2p0---------------------------0-------------
B|------------2/3-----3---------------2h3p2p0-----3p2--0--2h3-----3p2--0--2--
G|-------3/4----------4------------------------2-----------------------------
D|--4/5---------------4------------------------------------------------------
A|--------------------2--0----------------------------------------2-------1--
E|------------------------------------------------3-------2------------------



E|-------------------------------------------------------------------------------
B|-------------2--3--0--2-----0--------------------------------------------------
G|-------3--4--------------3-----0--3-----0--------------------------------------
D|--4/5--------------------------------4-----2--4--0--2-----0--------------------
A|-------------------------------------------------------4-----2--4--1--2-----1--
E|-------------------------------------------------------------------------3-----
http://www.guitartabcreator.com
Guitar Tab Creator is intended to store guitar tab created through the tool. It currently does not support in-line text editing. Any text you place in here will be lost. If you need to comment on your tab, please use the "Tab Notes" section located below.