layla

(/) Slide Up  (\) Slide Down  (h) Hammer On  (p) Pull Off  (b) Bend (r) Release (v) Vibrato
E|-----------------------------
B|--------3--3--------------3--
G|--------2--2-----3--5--5--2--
D|--------0--0-----3--5--5--0--
A|--0--3--------3--1--3--3-----
E|-----------------------------



E|------------------------------------------------------------------------8----------10----12-------
B|--------5--6--5h6p5-----5--6--5-------5--6--6/8----6--8--8/10----8--10-----10--13-----------------
G|-----7---------------7-----------7----------------------------------------------------------------
D|--7-----------------------------------------------------------------------------------------------
A|--------------------------------------------------------------------------------------------------
E|--------------------------------------------------------------------------------------------------



E|--10h12p10------10--------------------------------------------------------------------------
B|------------13------13--10------10-----------------------------------5--6--5----------------
G|----------------------------12------12----12p10\9--10--9--7-------7-----------7--5--7-------
D|---------------------------------------------------------------7-----------------------7\5--
A|--------------------------------------------------------------------------------------------
E|--------------------------------------------------------------------------------------------



E|-----------------------
B|-----------------------
G|-----------------------
D|--3-------3h5----3--0--
A|-----5-----------------
E|-----------------------



E|------5--5--5--5--5-----5------------------------------------------------------------------------
B|------6--6--6--6--6-----6-----------------------12--13--13--13---------13--15--------------------
G|---------------------7-----7p5------------------13--14--14--14--13/14----------13\12--10---------
D|--------------------------------7--6p5\3-----3--------------------------------------------12-----
A|--20--------------------------------------5------------------------------------------------------
E|-------------------------------------------------------------------------------------------------



E|----------------------10--12--10h12p10------10----------------------------------------------------
B|--------------10--13--------------------13------13--10--10--10--10--11--10------------------------
G|--10--10--12----------------------------------------------------------------12--10--9--7h9--7-----
D|--------------------------------------------------------------------------------------------------
A|--------------------------------------------------------------------------------------------------
E|--------------------------------------------------------------------------------------------------



E|---------------------------------------------------------
B|-----------5--6--5h6p5-----------------------------------
G|--5-----7---------------7--5-----------------------------
D|-----7------------------------7--6--5--3-----3--5--3-----
A|------------------------------------------5-----------5--
E|---------------------------------------------------------



E|--12b13--10------10--12--10h12--10------------------10------12b13--10------15--15--15--13--
B|-------------13---------------------13--10------10------10-------------13------------------
G|--------------------------------------------13---------------------------------------------
D|-------------------------------------------------------------------------------------------
A|-------------------------------------------------------------------------------------------
E|-------------------------------------------------------------------------------------------



E|----------12--13--15--13--15--12--13----------------------------------------------------------
B|------15------------------------------15--13----------13------10-----------------10--8--8--8--
G|--14------------------------------------------12--10------12------14\12--10------10--9--9--9--
D|-----------------------------------------------------------------------------12---------------
A|----------------------------------------------------------------------------------------------
E|----------------------------------------------------------------------------------------------



E|----------------------------------
B|----------------------------------
G|--9h10------5---------------------
D|--------12-----7--6--5\3--5p3-----
A|-------------------------------5--
E|----------------------------------
http://www.guitartabcreator.com
Guitar Tab Creator is intended to store guitar tab created through the tool. It currently does not support in-line text editing. Any text you place in here will be lost. If you need to comment on your tab, please use the "Tab Notes" section located below.