Hotel California - capo 7

(/) Slide Up  (\) Slide Down  (h) Hammer On  (p) Pull Off  (b) Bend (r) Release (v) Vibrato
E|----7--------------------7-----------------------------9--7----------------7--------------------
B|----7-----------7-----------7--7--------------7-----------10--------10-----------10-------------
G|----7-----7-----------7-----7--9--9-----9-----------9-----9------9------9-----9-----------9-----
D|----9--9-----9-----9--------------8--8-----8-----8--------7---7----------------------7----------
A|----9-----------------------------9-------------------------------------------------------------
E|----7-------------------------------------------------------------------------------------------



E|----------------------7---------------------7----------------------------7----------
B|--10----------10------7------------7----------------------------8-----8-------------
G|-----------9----------7------7-----------7----------------7----------------------7--
D|----------------------9---9-----9-----9----------------9-----9-----9--------7h9-----
A|------9---------------11---------------------------10-------------------------------
E|------------------------------------------------------------------------------------



E|--------------10------------------------------------------------7--------------------------9--
B|--------7------------7--------7---------7--------------8--------------------------7-----------
G|-----7-----7------7--------7---------7-----------7-----------7--------------9-----------9-----
D|--7-------------------------------------------9-----9-----9--------9-----8-----8-----8--------
A|------------------------9------------------7--------------------------9-----------------------
E|---------------------------------10-----------------------------------------------------------



E|--7---10--7--7--7---10--7--9--
B|--8---7---8--7--8---7---8--7--
G|--7---7---9--7--7---7---9--9--
D|--9---7---9--9--9---7---9--8--
A|--10--9---7--9--10--9---7--9--
E|------10-----7------10--------
http://www.guitartabcreator.com
Guitar Tab Creator is intended to store guitar tab created through the tool. It currently does not support in-line text editing. Any text you place in here will be lost. If you need to comment on your tab, please use the "Tab Notes" section located below.