comfortably numb 1

(/) Slide Up  (\) Slide Down  (h) Hammer On  (p) Pull Off  (b) Bend (r) Release (v) Vibrato
E|--14----b14--14--------------------------------14b14--14-------------------------------------
B|-----------------15b15--14--14----------------------------15b15--14--------------------------
G|--------------------------------14-----------------------------------14----------------------
D|------------------------------------14/12--12----------------------------14--12--11----------
A|-------------------------------------------------------------------------------------12--12--
E|---------------------------------------------------------------------------------------------



E|-------------------------------------------------------------15--14--------------------------------
B|---------------------------------------------------------------------17--15--12--------------------
G|--11b12--11--9--7/9h12p9\7--7--9p7-----7--9--11--11--11b12v----------------------12----------------
D|------------------------------------9------------------------------------------------12--10--9-----
A|---------------------------------------------------------------------------------------------------
E|---------------------------------------------------------------------------------------------------



E|--------------------------------------------
B|--------------------------------------------
G|----------11b12--9b11--9b11p7--7------------
D|--10p9\7--------------------------7/9\7--7--
A|--------------------------------------------
E|--------------------------------------------
http://www.guitartabcreator.com
Guitar Tab Creator is intended to store guitar tab created through the tool. It currently does not support in-line text editing. Any text you place in here will be lost. If you need to comment on your tab, please use the "Tab Notes" section located below.