comfartably numb 2

(/) Slide Up  (\) Slide Down  (h) Hammer On  (p) Pull Off  (b) Bend (r) Release (v) Vibrato


E|-----------------------------------------------------------------------------10-------------------
B|--------------------------------------------------10------10--12b15--10--12-----------------------
G|-----7--9b11--9b11b9p7-----7--9--9p7--------7/11------11-------------------------7--9b11--9p7-----
D|--7---------------------9-------------9--9-----------------------------------------------------9--
A|--5-----------------------------------------------------------------------------------------------
E|--------------------------------------------------------------------------------------------------



E|-------------------------------------------------------7--9b10r9p7------7---------
B|-----7-----7--------------------------------------------------------10-----10b12--
G|--9-----9-----9p7--------------------------7-----7--------------------------------
D|-------------------7---------7-----7--9p7-----9-----9-----------------------------
A|------------------------7/9-----9-------------------------------------------------
E|----------------------------------------------------------------------------------



E|---------------------------------------------------------------------
B|--10-------------10--------------------------------------------------
G|------11--9--11------11--9b11r9--7-----9--7--------------------------
D|------------------------------------9--------7--7--------------------
A|---------------------------------------------------9p8p7--7\5-----5--
E|---------------------------------------------------------------7-----



E|--
B|--
G|--
D|--
A|--
E|--



E|--------------------7-------------------------------------------------------------------
B|-----------------7-----10--7------------------------------------------------------------
G|--7--7--7--9b11---------------9b11r9p7-----9--7-----------------------------------------
D|----------------------------------------9--------9p7------------------------7-----7--7--
A|------------------------------------------------------9--7--5--7p5-----5/9-----9--------
E|--------------------------------------------------------------------7-------------------



E|--
B|--
G|--
D|--
A|--
E|--
http://www.guitartabcreator.com
Guitar Tab Creator is intended to store guitar tab created through the tool. It currently does not support in-line text editing. Any text you place in here will be lost. If you need to comment on your tab, please use the "Tab Notes" section located below.