Start Again

(/) Slide Up  (\) Slide Down  (h) Hammer On  (p) Pull Off  (b) Bend (r) Release (v) Vibrato


E|--------------------------------------------------------
B|--------------------------------------------------------
G|--------------------------------------------------------
D|--------------------------------------------------------
A|--------12--10------10-------------12------------10-----
E|--0--0----------12------12h10--10------10--8--8------8--



E|--------------------------------------------------
B|--------------------------------------------------
G|--------------------------------------------------
D|--------------------------------------------------
A|--------7--------7-----7--------7--------7-----7--
E|--5--5-----5--5-----5-----5--5-----5--5-----5-----



E|--------------------------------------------------
B|--------------------------------------------------
G|--------------------------------------------------
D|--------------------------------------------------
A|--------5--------5-----5--------5--------5-----5--
E|--3--3-----3--3-----3-----3--3-----3--3-----3-----



E|------------------------------------------------
B|------------------------------------------------
G|------------------------------------------------
D|------------------------------------------------
A|--------5--------5-----5--------7------------3--
E|--3--3-----3--3-----3---------------------------



E|-----------------------------------------------------------------------
B|-----------------------------------------------------------------------
G|-----------------------------------------------------------------------
D|-----------------------------------------------------------------------
A|--------12-------------------------------------------------------------
E|--0--0------12h0--3--3--3--3--3/8----8--8--7--5----8--7--5----8--7--5--



E|----------------------------------------------------------------
B|----------------------------------------------------------------
G|----------------------------------------------------------------
D|----------------------------------------------------------------
A|--------12-----------7-----------10-----------5--------5-----5--
E|--0--0------0--5--5-----5--8--8------8--3--3-----3--3-----3-----



E|--------------------------------------------------
B|--------------------------------------------------
G|--------------------------------------------------
D|--------------------------------------------------
A|--------5--------5-----5--------5--------5-----5--
E|--3--3-----3--3-----3-----3--3-----3--3-----3-----



E|--------------------------------------------------
B|--------------------------------------------------
G|--------------------------------------------------
D|--------------------------------------------------
A|--------7--------7-----7--------7--------7-----7--
E|--5--5-----5--5-----5-----5--5-----5--5-----5-----



E|--------------------------------------------------------
B|--------------------------------------------------------
G|--------------------------------------------------------
D|--------------------------------------------------------
A|--------10--------10-----10--------10--------10-----10--
E|--8--8------8--8------8------8--8------8--8------8------



E|--------------------------------------------------
B|--------------------------------------------------
G|--------------------------------------------------
D|--------------------------------------------------
A|--------8--------8-----8--------8--------8-----8--
E|--7--7-----7--7-----7-----7--7-----7--7-----7-----



E|-------------------------------------------
B|-------------------------------------------
G|-------------------------------------------
D|-------------------------------------------
A|--------10--------10-----10--10--8--7------
E|--7--7------7--7------7----------------10--



E|------------------------------------------------------------
B|------------------------------------------------------------
G|------------------------------------------------------------
D|------------------------------------------------------------
A|-----12--12--12------12--12--12-----10--10--10-----8-----7--
E|--0--------------10--------------8--------------7-----5-----



E|-----------------------------------------------------------
B|-----------------------------------------------------------
G|-----------------------------------------------------------
D|-----------------------------------------------------------
A|-----12--10----------12--10---------10--8---------8-----7--
E|--0----------12--10----------12--8---------10--7-----5-----



E|--------------------------------------------------------------------------------------
B|--------------------------------------------------------------------------------------
G|--------------------------------------------------------------------------------------
D|--------------------------------------------------------------------------------------
A|--------------12--12--12--12--12\3----------------------------------------------------
E|--0--0--0--0------------------------3--3--3--3--3--3--3--3/8--8--8--8--8--8--8--8--8--



E|----------------------
B|----------------------
G|----------------------
D|----------------------
A|----------------------
E|--8--7--5----8--7--5--



E|----------------------------------------------------------------------------
B|----------------------------------------------------------------------------
G|----------------------------------------------------------------------------
D|----------------------------------------------------------------------------
A|----------------------------------------------------------------------------
E|--0--0--0--0--0--0--0--3--0--0--0--0--0--0--0--3--0--0--0--0--0--0--0--3----



E|----------------------------------
B|----------------------------------
G|----------------------------------
D|----------------------------------
A|----------------------------------
E|--0--0--0--0--8--7--5----8--7--5--
http://www.guitartabcreator.com
Guitar Tab Creator is intended to store guitar tab created through the tool. It currently does not support in-line text editing. Any text you place in here will be lost. If you need to comment on your tab, please use the "Tab Notes" section located below.