Get Good

(/) Slide Up  (\) Slide Down  (h) Hammer On  (p) Pull Off  (b) Bend (r) Release (v) Vibrato


E|-------------------------------------------------------
B|-------------------------------------------------------
G|-------------------------------------------------------
D|--0--12--12--12----7/3--0--10--0----0--10h0--7h0--5h7--
A|--0--12--12--12----7-3--0--10--0----0--10-0--7-0--5-7--
E|--0--12--12--12----7-3--0--10--0----0--10-0--7-0--5-7--



E|-----------------------------------
B|-----------------------------------
G|-----------------------------------
D|--7--7--8--10--5----5--5--7--8--7--
A|--7--7--8--10--5----5--5--7--8--7--
E|--7--7--8--10--5----5--5--7--8--7--



E|------------------------------------------------------------
B|------------------------------------------------------------
G|------------------------------------------------------------
D|------------------------------------------------------------
A|------------------------------------------------------------
E|--0--12h0h12h0--7h0--8h0--7--0----12h0h12h0----5h0--7h0--8--



E|------------------------------------------------------------
B|------------------------------------------------------------
G|------------------------------------------------------------
D|------------------------------------------------------------
A|------------------------------------------------------------
E|--0--12h0h12h0--7h0--8h0--7--0----12h0h12h0----8h0--7h0--5--



E|--------------------------------------------------------------------
B|--------------------------------------------------------------------
G|--------------------------------------------------------------------
D|--0--0----0--0--0--3--3--3--3--3----5--5----5--5--5--8--8--8--8--8--
A|--0--0----0--0--0--3--3--3--3--3----5--5----5--5--5--8--8--8--8--8--
E|--0--0----0--0--0--3--3--3--3--3----5--5----5--5--5--8--8--8--8--8--
http://www.guitartabcreator.com
Guitar Tab Creator is intended to store guitar tab created through the tool. It currently does not support in-line text editing. Any text you place in here will be lost. If you need to comment on your tab, please use the "Tab Notes" section located below.