End of an Era

(/) Slide Up  (\) Slide Down  (h) Hammer On  (p) Pull Off  (b) Bend (r) Release (v) Vibrato


E|-------------------------------------------------------------
B|------16--11------18--15------16--11------18--15--16--11-----
G|-------------------------------------------------------------
D|--13----------13----------13----------13---------------------
A|-------------------------------------------------------------
E|-------------------------------------------------------------



E|----------------------------------------------------------
B|------16--11------16--15------16--11------16--15--15--11--
G|----------------------------------------------------------
D|--10----------10----------10----------10------------------
A|----------------------------------------------------------
E|----------------------------------------------------------



E|--
B|--
G|--
D|--
A|--
E|--
http://www.guitartabcreator.com
Guitar Tab Creator is intended to store guitar tab created through the tool. It currently does not support in-line text editing. Any text you place in here will be lost. If you need to comment on your tab, please use the "Tab Notes" section located below.