White wine in the sun 2

(/) Slide Up  (\) Slide Down  (h) Hammer On  (p) Pull Off  (b) Bend (r) Release (v) Vibrato

E|--------------------------------------
B|--------------------------------------
G|--------0--------0--------0--------0--
D|-----2--------2--------2--------2-----
A|--3--------3--------3--------3--------
E|--------------------------------------



E|--------------------------------------------------------------------------
B|--------------------------------------------------------------------------
G|--------0--------0--------0--------0--------0--------0--------0--------0--
D|-----2--------2--------2--------2--------2--------2--------2--------2-----
A|--3--------3--------3--------3--------3--------3--------3--------3--------
E|--------------------------------------------------------------------------



E|--------------------------------------------------------------------------
B|--------------------------------------------------------------------------
G|--------0--------0--------0--------0--------0--------0--------0--------0--
D|-----3--------3--------3--------3--------2--------2--------2--------2-----
A|--3--------3--------3--------3--------3--------3--------3--------3--------
E|--------------------------------------------------------------------------



E|--------------------------------------------------------------------------
B|--------------------------------------------------------------------------
G|--------0--------0--------0--------0--------0--------0--------0--------0--
D|-----2--------2--------2--------2--------2--------2--------2--------2-----
A|--3--------3--------3--------3--------3--------3--------3--------3--------
E|--------------------------------------------------------------------------



E|--------------------------------------------------------------------------
B|--------------------------------------------------------------------------
G|--------0--------0--------0--------0--------0--------0--------0--------0--
D|-----3--------3--------3--------3--------2--------2--------2--------2-----
A|--3--------3--------3--------3--------3--------3--------3--------3--------
E|--------------------------------------------------------------------------



E|--------------------------------------------------------------------------
B|--------------------------------------------------------------------------
G|--------0--------0--------0--------0--------0--------0--------0--------0--
D|-----0--------0--------0--------0--------3--------3--------3--------3-----
A|--------------------------------------------------------------------------
E|--3--------3--------3--------3--------3--------3--------3--------3--------



E|--------------------------------------------------------------------------
B|--------------------------------------------------------------------------
G|--------2--------2--------2--------2--------2--------2--------2--------2--
D|-----3--------3--------3--------3-----------------------------------------
A|-----------------------------------------0--------0--------0--------0-----
E|--1--------1--------1--------1--------1--------1--------1--------1--------



E|--------------------------------------------------------------------------
B|--------------------------------------------------------------------------
G|--------0--------0--------0--------0--------0--------0--------0--------0--
D|-----2--------2--------2--------2--------0--------0--------3--------3-----
A|--3--------3--------3--------3--------------------------------------------
E|--------------------------------------3--------3--------3--------3--------



E|--------------------------------------------------------------------------
B|--------------------------------------------------------------------------
G|--------0--------0--------0--------0--------0--------0--------0--------0--
D|-----2--------2--------2--------2--------2--------2--------2--------2-----
A|--3--------3--------3--------3--------3--------3--------3--------3--------
E|--------------------------------------------------------------------------



E|--------------------------------------------------------------------------
B|--------------------------------------------------------------------------
G|--------0--------0--------0--------0--------0--------0--------0--------0--
D|-----3--------3--------3--------3--------2--------2--------2--------2-----
A|--3--------3--------3--------3--------3--------3--------3--------3--------
E|--------------------------------------------------------------------------



E|--------------------------------------------------------------0--
B|-----------------------------------------------------------------
G|--------0--------0--------0--------0--------0--------0-----------
D|-----0--------0--------0--------0--------3--------3--------3-----
A|-----------------------------------------------------------------
E|--3--------3--------3--------3--------3--------3--------4--------



E|--------------------------------------
B|-----------1-----------------1--------
G|--------2-----2-----------2-----2-----
D|-----2-----------2-----2-----------2--
A|--0-----------------------------------
E|--------------------3-----------------
http://www.guitartabcreator.com
Guitar Tab Creator is intended to store guitar tab created through the tool. It currently does not support in-line text editing. Any text you place in here will be lost. If you need to comment on your tab, please use the "Tab Notes" section located below.