Wither for real

(/) Slide Up  (\) Slide Down  (h) Hammer On  (p) Pull Off  (b) Bend (r) Release (v) Vibrato


E|--------------------------------------------------------------------------------------
B|--------------------------------------------------------------------------------------
G|--------------------------------------------------------------------------------------
D|-------------------------6---------------------------6---------------------------6----
A|-----4-----8-------4-------------4-----8-------4-------------4-----8-------4----------
E|--6-----6-------2-----2-------6-----6-------2-----2-------6-----6-------2-----2-------



E|--------------------------------------------------------------------------------------
B|--------------------------------------------------------------------------------------
G|--------------------------------------------------------------------------------------
D|-------------------------6---------------------------6-----------------------------6--
A|-----4-----8-------4-------------4-----8-------4-------------4-----8---------4--------
E|--6-----6-------2-----2-------6-----6-------2-----2-------6-----6---------2-----2-----



E|----------------------------
B|----------------------------
G|-----------6----------------
D|-----3-------------1--------
A|--4-----4----------------4--
E|----------------4-----4-----



E|-----------------------6---------------------------------
B|------------------------------------------------9--------
G|---------13------------------------13--------------8-----
D|-----11------------15----------11-----------10-----6-----
A|--9------------13-----------9------------8---------x-----
E|---------------------------------------------------------



E|--------------------------------------------------------------------------------
B|--------------------------------------------------------------------------------
G|--------------------11----------------------------------------------------------
D|--11----18----15----11------11----18--------11--11----11----11--------------11--
A|--11----15----13----9-------11----15--------9---9-----9-----11--11--11--11--11--
E|--9-------------------------9-------------------------------9---9---9---9---9---



E|-------------------------------
B|-------------------------------
G|-------------------------------
D|--18--------------18----11-----
A|--15--15--15--15--15----9------
E|-------------------------------



E|--------------------------------------------------------------------------------
B|--------------------------------------------------------------------------------
G|--------------------------10-----------10--------6--6----6----------------------
D|--18--------------18------8------------8---------4--4----4----11----18--15--11--
A|--15--15--15--15--15------------------------------------------11----15--13--9---
E|------------------------------6--6--6-------------------------9-----------------



E|-------11-------------------------------------
B|-------11-------------------------------------
G|-------8--------------------------------------
D|--8----8-----11----13----11----13----15----8--
A|--6----6-----9-----11----9-----11----13----8--
E|-------------------------------------------6--



E|---------------------------------------------------------------------------------
B|---------------------------------------------------------------------------------
G|------------------------------10-----------10-----------10-------------10--10\6--
D|--11--13----15----15----11----8------------8------------8--------------8---8--4--
A|--9---11----13----13----9--------------------------------------------------------
E|----------------------------------6--6--6------6--6--6------6--6--6--------------



E|---------------------------------------------
B|---------------------------------------------
G|--6------8----13--13--10--------6----5----8--
D|--4------6----11--10--8---------4----3----6--
A|---------------------------------------------
E|---------------------------------------------
http://www.guitartabcreator.com
Guitar Tab Creator is intended to store guitar tab created through the tool. It currently does not support in-line text editing. Any text you place in here will be lost. If you need to comment on your tab, please use the "Tab Notes" section located below.