Wither

(/) Slide Up  (\) Slide Down  (h) Hammer On  (p) Pull Off  (b) Bend (r) Release (v) Vibrato


E|------------------------------------------------------------------------------------
B|------------------------------------------------------------------------------------
G|-------------------------------------------------------------------6----------------
D|-------------------------6---------------------------6-------3----------------------
A|-----4-----8-------4-------------4-----8-------4----------4-----4----------1-----4--
E|--6-----6-------2-----2-------6-----6-------2-----2---------------------4-----4-----



E|---------------------6-------------------------------------------------------
B|------------------------------------------9----------------------------------
G|---------13--------------------13--------------8------6------13--------------
D|-----11----------15--------11---------10-------6------6------10----15----11--
A|--9----------13---------9----------8------------------4------------13----9---
E|-----------------------------------------------------------------------------



E|------------------------------------------------------------------------------------
B|------------------------------------------------------------------------------------
G|----------------------------------------------------------13--------------13----11--
D|--11----13----15----11--11----11----11--------------11----10--10--10--10--10----11--
A|--11----10----13----9---9-----9-----11--11--11--11--11--------------------------9---
E|--9---------------------------------9---9---9---9---9-------------------------------



E|--------
B|--------
G|--------
D|--8----\
A|--6-----
E|--------
http://www.guitartabcreator.com
Guitar Tab Creator is intended to store guitar tab created through the tool. It currently does not support in-line text editing. Any text you place in here will be lost. If you need to comment on your tab, please use the "Tab Notes" section located below.