Loyalty Solo

(/) Slide Up  (\) Slide Down  (h) Hammer On  (p) Pull Off  (b) Bend (r) Release (v) Vibrato

E|-------------------------------------------------------------------------------------------
B|-------------------------------------------------------------------------------------------
G|--------------------------12--14--14b15--14--14v--12--12--12--12h14p12---------------------
D|------------------12--14------------------------------------------------12--12--12h14--12--
A|----------12--14---------------------------------------------------------------------------
E|--12--15-----------------------------------------------------------------------------------



E|-----------------------------------------------------15--15--15p12------------------------------
B|------------------------------------------12/13--15-----------------12h15p12h15p12--------------
G|-----------------------------------12h14--------------------------------------------14--14--14--
D|--------------------12--14--12h14---------------------------------------------------------------
A|--12h14--12\10--10------------------------------------------------------------------------------
E|------------------------------------------------------------------------------------------------



E|--------------------------------------------------------------------------------------------
B|--------------------------------------------------------------------------------------------
G|--14--14p12v------------------------------12--14--14b15--14--14----12--12--12h14p12---------
D|----------------------------------12--14---------------------------------------------12-----
A|--------------------------12--14------------------------------------------------------------
E|------------------12--15--------------------------------------------------------------------



E|---------------------------------------------------------------------------------------------
B|---------------------------------------------------------------------------------------------
G|----------------------------------------12h14p12------12h14p12------12h14--12h14b15--12v--14b
D|--12h14p12----------------------12--12------------12------------12---------------------------
A|------------12h14--12\10--10-----------------------------------------------------------------
E|---------------------------------------------------------------------------------------------



E|-------------------------------------------------------------------------------------------
B|-------------------------------------------------------------------------------------------
G|--14b14b14b14b14b14b14b14b14b14b14b14b14b14b14v------12--12--12--12--12h14--12---------12--
D|--------------------------------------------------------------------------------12h14------
A|-------------------------------------------------------------------------------------------
E|-------------------------------------------------------------------------------------------



E|------------------------------------------------------------------------------------
B|------------------------------------------------------------------------------------
G|------------------------------------------------------------------------------------
D|--14--12--14--12------12------------------------------------------------12----------
A|------------------14------14--14--12--12--14--12\10--10/12--12--14--14------14--12--
E|------------------------------------------------------------------------------------



E|----------------------------------------------------------------------------------------------------
B|----------------------------------------------------------------------------------------------------
G|----------------------------------------------------------------------------------------------------
D|----------------------------------------------------------------------------------------------------
A|--12h14--12h14--12h14--10--12--10--7--7--7--9--9--9--10--10--10--12--12--12--14--14--14--15--15-----
E|----------------------------------------------------------------------------------------------------



E|--------------------------------------------------------------------------------------------------
B|---------------------------------------------------------------------------------------12/13--13--
G|-----------------------------------------------12----------------12------------12--14-------------
D|------12--14--14------12h14--12h14--12h14--14------14----12--14--------14--14---------------------
A|--15----------------------------------------------------------------------------------------------
E|--------------------------------------------------------------------------------------------------



E|------------15--12--12---------------------------------------------------------19v--19v--
B|--15--15----------------15--15--15--15--12-----------------------------------------------
G|--------------------------------------------14--14v--14p12v------------------------------
D|-------------------------------------------------------------12--12/14--12/14------------
A|-----------------------------------------------------------------------------------------
E|-----------------------------------------------------------------------------------------
http://www.guitartabcreator.com
Guitar Tab Creator is intended to store guitar tab created through the tool. It currently does not support in-line text editing. Any text you place in here will be lost. If you need to comment on your tab, please use the "Tab Notes" section located below.