Exercises

(/) Slide Up  (\) Slide Down  (h) Hammer On  (p) Pull Off  (b) Bend (r) Release (v) Vibrato

Stave 1:

E|-----------------------------------------------------------------------
B|-----------------------------------------------------------------------
G|-----------------------------------------------------------------------
D|------------------------------------------------9--10--11--12--11--10--
A|-------------------------9--10--11--12--11--10-------------------------
E|--9--10--11--12--11--10------------------------------------------------

Stave 2:

E|------------------------------------------------9--10--11--12--11--10--
B|-------------------------9--10--11--12--11--10-------------------------
G|--9--10--11--12--11--10------------------------------------------------
D|-----------------------------------------------------------------------
A|-----------------------------------------------------------------------
E|-----------------------------------------------------------------------

Stave 3:

E|--------------------------------------------------------2--4--
B|--------------------------------------------2--4--1--3--------
G|--------------------------------2--4--1--3--------------------
D|--------------------2--4--1--3--------------------------------
A|--------2--4--1--3--------------------------------------------
E|--1--3--------------------------------------------------------

http://www.guitartabcreator.com
Guitar Tab Creator is intended to store guitar tab created through the tool. It currently does not support in-line text editing. Any text you place in here will be lost. If you need to comment on your tab, please use the "Tab Notes" section located below.