AC/DC - The jack part 1

(/) Slide Up  (\) Slide Down  (h) Hammer On  (p) Pull Off  (b) Bend (r) Release (v) Vibrato


E|-----------------------|----------------------------------|-------------|-------------|------------|
B|-----------------------|----------------------------------|-------------|-------------|------------|
G|-----------------------|------------2-3-4--4-4-4-4-4-4-4/-|-------------|-------------|------------|
D|-----------7----------5|------------2-3-4--4-4-4-4-4-4-4/-|-------------|-2-x-2-4-x-5-|------------|
A|--9-x-9-11-9--7-x-7-9-7|--2-x-2-4-5-0-1-2--2-2-2-2-2-2-2/-|-2-x-2-4-x-5-|-0-x-0-0-x-0-|-2-x-2-4-x-5|
E|--7-x-7-7--7--5-x-5-5-5|--0-x-0-0-0-----------------------|-0-x-0-0-x-0-|-------------|-0-x-0-0-x-0|

speel 3 speel 4 speel 4 speel 4
keer keer keer keer

E|----------------|----------|-----------|-----------|
B|----------------|----------|-----------|-----------|
G|----------------|----------|-----------|-----------|
D|-2-x-2-4-x-5----|----------|-2--2-4--4-|-----------|
A|-0-x-0-0-x-0----|2--2-4--4-|-0--0-0--0-|-2--2-4--4-|
E|----------------|0--0-0--0-|-----------|-0--0-0--0-|

steeds harder speel 7 speel 5 speel 5
tot refrein keer keer keer


http://www.guitartabcreator.com
Guitar Tab Creator is intended to store guitar tab created through the tool. It currently does not support in-line text editing. Any text you place in here will be lost. If you need to comment on your tab, please use the "Tab Notes" section located below.