1

(/) Slide Up  (\) Slide Down  (h) Hammer On  (p) Pull Off  (b) Bend (r) Release (v) Vibrato

E|--------------------------------------
B|--------1--------3--------5-----3-----
G|--------------------------------------
D|-----2--------3--------5-----3-----3--
A|--0--------0--------0-----------------
E|--------------------------------------



E|--------------------------------6--------5-----------------------------------------
B|--------6-----------6--------5--------5--------------6--------6--------6--------8--
G|-----5-----------5--------------------------5-----5--------5--------5--------7-----
D|-----------------------------------------------------------------------------------
A|--5--------5-----------------------------------------------------------------------
E|--------------6--------6--3--------5-----------6--------6--------6--------8--------
http://www.guitartabcreator.com
Guitar Tab Creator is intended to store guitar tab created through the tool. It currently does not support in-line text editing. Any text you place in here will be lost. If you need to comment on your tab, please use the "Tab Notes" section located below.