He Is Faithful (F#)

(/) Slide Up  (\) Slide Down  (h) Hammer On  (p) Pull Off  (b) Bend (r) Release (v) Vibrato

Intro:
E|--4-----4--7--6-----4-----4--7--6-----
B|--7--7-----------7--7--7-----------7--
G|--6-----------------6-----------------
D|--4-----------------4-----------------
A|--4-----------------4-----------------
E|--------------------------------------


Verse
E|-------6--6-------2--------11--11--------2--
B|--------------------------------------------
G|--4/6--------6/4-----4/11----------11/4-----
D|--------------------------------------------
A|--------------------------------------------
E|--------------------------------------------

Prechorus
E|--13--11--11---------14--13--11--11--
B|--14--11--12-------------14--11--12--
G|--13--11--11--13/15------13--11--11--
D|-------------------------------------
A|-------------------------------------
E|-------------------------------------


Chorus
E|--14--14--14--14--14--14--14------------------------------------------------------
B|------------------------------14--14--14--14--16--16--16--12--12--12--11--11--11--
G|----------------------------------------------------------------------------------
D|----------------------------------------------------------------------------------
A|----------------------------------------------------------------------------------
E|----------------------------------------------------------------------------------



E|--14--14--14--14----------------------------------------------------------
B|------------------14--14--14--14--16--16--16--16--18--18--18--19--19--19--
G|--------------------------------------------------------------------------
D|--------------------------------------------------------------------------
A|--------------------------------------------------------------------------
E|--------------------------------------------------------------------------


Bridge
E|---------------------------------------------------------
B|---------------------------------------------------------
G|---------------------------------------------------------
D|--13--13--13--11--13--13--13--13--11------11------15b17--
A|--------------------------------------13------11---------
E|---------------------------------------------------------



E|--13b15--------------------------------------------------13b15--
B|---------16--16--16--14--16--16--16--16--14------14-------------
G|---------------------------------------------15------13---------
D|----------------------------------------------------------------
A|----------------------------------------------------------------
E|---------------------------------------------------------------- http://www.guitartabcreator.com
Guitar Tab Creator is intended to store guitar tab created through the tool. It currently does not support in-line text editing. Any text you place in here will be lost. If you need to comment on your tab, please use the "Tab Notes" section located below.