Song 1 - test

(/) Slide Up  (\) Slide Down  (h) Hammer On  (p) Pull Off  (b) Bend (r) Release (v) Vibrato


E|--------------------------------------------------------------------
B|----------------------------------------------------------------17--
G|------------------------------------------------------------19------
D|--------7--------8--------5--------5--7---------15--16--------------
A|--5--5-----5--5-----5--5-----5--5--------5--------------------------
E|--------------------------------------------15----------18----------



E|----------------------------------------------------------------
B|-------------4--2-----------------------------------------------
G|------10--6-----------7-------------------------20--18----------
D|-------------------4------------16----------20----------14------
A|--14------------------------12------18----------------------10--
E|-------------------------9--------------18----------------------
http://www.guitartabcreator.com
Guitar Tab Creator is intended to store guitar tab created through the tool. It currently does not support in-line text editing. Any text you place in here will be lost. If you need to comment on your tab, please use the "Tab Notes" section located below.