first solo created

(/) Slide Up  (\) Slide Down  (h) Hammer On  (p) Pull Off  (b) Bend (r) Release (v) Vibrato

E|------------------------------------------------------------------------
B|------------------------------------------------------------------------
G|------------------------------------------------------------------------
D|-----------3p0-5p0-3p0-5p0-7p0-5p0-7p0-9p0-7p0-9p0-11p0-9p0-7p0-5p0-3p0-
A|-------3h5--------------------------------------------------------------
E|-0-5-3------------------------------------------------------------------



E|----------------------------------------------------------------
B|----------------------------------------------------------------
G|-3p0-5p0-3p0-5p0-7p0-5p0-7p0-9p0-7p0-9p0-11p0-9p0-7p0-5p0-3p0---
D|----------------------------------------------------------------
A|----------------------------------------------------------------
E|----------------------------------------------------------------



E|-------------------------------------------------------------------------
B|-3p0-5p0-3p0-5p0-7p0-5p0-7p0-9p0-7p0-9p0-11p0-9p0-12p0-9p0-11p0-9p0-12p0-
G|-------------------------------------------------------------------------
D|-------------------------------------------------------------------------
A|-------------------------------------------------------------------------
E|-------------------------------------------------------------------------



E|-----------------------------------------------------------------------
B|-9p0-11p0-9p0-12p0-12p11p9-12p11p9-11p10p9-11p10p9-7p6p5-7p6p5-5p4p3---
G|-----------------------------------------------------------------------
D|-----------------------------------------------------------------------
A|-----------------------------------------------------------------------
E|-----------------------------------------------------------------------



E|----------------------------------------
B|--5p4p3---------------------------------
G|---------5p4p3--5p4p3-------------------
D|-----------------------5p4p3--5p4p3\12--
A|----------------------------------------
E|----------------------------------------
http://www.guitartabcreator.com
Guitar Tab Creator is intended to store guitar tab created through the tool. It currently does not support in-line text editing. Any text you place in here will be lost. If you need to comment on your tab, please use the "Tab Notes" section located below.