My dark space (chorus)

(/) Slide Up  (\) Slide Down  (h) Hammer On  (p) Pull Off  (b) Bend (r) Release (v) Vibrato
(x)Palm Mute

D|--------------------------------------------------------------|--
A|--------------------------------------------------------------|--
F|--------------------------------------------------------------|--
C|--------------------------------------------------------------|--
G|--5--0--x--0--0--0--5--7--5--0--5--0--x--0--0--0--0--0--0--0--|--
C|--5--0--x--0--0--0--5--7--5--0--5--0--x--0--0--1--1--1--1--1--|--
(x x x x x)


D|--------------------------------------------------------------|--
A|--------------------------------------------------------------|--
F|--------------------------------------------------------------|--
C|--------------------------------------------------------------|--
G|--5--0--x--0--0--0--5--7--5--0--5--0--x--0--3--3--3--3--3--3--|--
C|--5--0--x--0--0--0--5--7--5--0--5--0--x--0--6--6--6--6--6--6--|--
(x x x x x x)

(Chorus) repeat twice

http://www.guitartabcreator.com
Guitar Tab Creator is intended to store guitar tab created through the tool. It currently does not support in-line text editing. Any text you place in here will be lost. If you need to comment on your tab, please use the "Tab Notes" section located below.