My Dark Space

(/) Slide Up  (\) Slide Down  (h) Hammer On  (p) Pull Off  (b) Bend (r) Release (v) Vibrato


D|-----------------------|-----------------------|--------------------------|-------------
A|-----------------------|-----------------------|--------------------------|-------------
F|-----------------------|-----------------------|--------------------------|-------------
C|---8---8---8---8---8r7-|---7---7---7---7---7r5-|---5---5h7---7r5---5---5v-|---3---3h5r3-
G|-5---5---5---5---5-----|-4---4---4---4---4-----|-3---3-----3-----3---3----|-2---2-------
C|-----------------------|-----------------------|--------------------------|-------------



D|---------------|---------------------|---------------------|----------------------|-
A|---------------|-----------6-------8-|-------5---6---5-----|-----------5----------|-
F|---------------|---7---9-------9-----|---7---------------7-|---5---7-------7---5v-|-
C|---0---0---0---|---------------------|---------------------|----------------------|-
G|-2---2---2-----|-5---5---5---5---5---|-4---4---4---4---4---|-3---3---3---3---3----|-
C|---------------|---------------------|---------------------|----------------------|-



D|-------------------|-
A|-------------------|-
F|-------------------|-
C|---3---3h5r3-------|-
G|-2---2-------2-----|-
C|-------------------|-
verse 1 repeat twice


E|-
B|-
G|-
D|-
A|-
E|-
http://www.guitartabcreator.com
Guitar Tab Creator is intended to store guitar tab created through the tool. It currently does not support in-line text editing. Any text you place in here will be lost. If you need to comment on your tab, please use the "Tab Notes" section located below.