This City Is Yours

(/) Slide Up  (\) Slide Down  (h) Hammer On  (p) Pull Off  (b) Bend (r) Release (v) Vibrato

E|--------------------------------------
B|--------------------------------------
G|--------------------------------------
D|--------------------------------------
A|-----5--3-----5--3-----5--3-----5--3--
E|--3--------3--------3--------3--------



E|-----------------------
B|-----------------------
G|-----------------------
D|-----------------------
A|--5--7--3--5--7-----3--
E|-----------------3-----



E|--------------------------------------------
B|--------------------------------------------
G|--------------------------------------------
D|--------------------------------------------
A|-----5--3-----5-----3-----5--3-----5--2--3--
E|--3--------3-----0-----3--------0-----------



E|-----------------------------------------------------------
B|-----------------------------------------------------------
G|-----------------------------------------------------------
D|-----------------------------------------------------------
A|--2--3--5--7--2--2--3--5--7--2--3--3--3--5--7--2--3--5--7--
E|-----------------------------------------------------------
http://www.guitartabcreator.com
Guitar Tab Creator is intended to store guitar tab created through the tool. It currently does not support in-line text editing. Any text you place in here will be lost. If you need to comment on your tab, please use the "Tab Notes" section located below.