Texas Flood

(/) Slide Up  (\) Slide Down  (h) Hammer On  (p) Pull Off  (b) Bend (r) Release (v) Vibrato
E|-----------3-------3--------3--3------|-------------8--------8-----------------------
B|-----------3----5--3--------5--5------|-------------8----10--8---------15--15----15--
G|-----------3h4--5--3h4------4--4------|-------------8h9--10--8h9-------15--15----15--
D|-----2--5---------------5v------------|------7--10----------------10v--14--14----14--
A|--5-----------------------------------|--10----------------------------15--15----15--
E|--------------------------------------|----------------------------------------------



E|----------3----------5--3h4p3-----3--6b8--6--3------------------------------------------
B|-------3-----6b7--3------------6----------------3---------------------------------------
G|--5b6----------------------------------------------5b7--3b5r3--------3---------------5--
D|---------------------------------------------------------------5--5-----5v-----------4--
A|----------------------------------------------------------------------------3--4--5--5--
E|----------------------------------------------------------------------------------------
http://www.guitartabcreator.com
Guitar Tab Creator is intended to store guitar tab created through the tool. It currently does not support in-line text editing. Any text you place in here will be lost. If you need to comment on your tab, please use the "Tab Notes" section located below.