Blues Licks in D - Albert King / SRV

(/) Slide Up  (\) Slide Down  (h) Hammer On  (p) Pull Off  (b) Bend (r) Release (v) Vibrato


E|---------10v--
B|--------------
G|--12b14-------
D|--------------
A|--------------
E|--------------



E|---------10------------------------------
B|--13b15------13--10----------------------
G|---------------------12b13--10v------10--
D|---------------------------------12------
A|-----------------------------------------
E|-----------------------------------------



E|--15b17----15b16----15b17----15b16--15------
B|----------------------------------------17--
G|--------------------------------------------
D|--------------------------------------------
A|--------------------------------------------
E|--------------------------------------------



E|--15b17--14b15--15b17--14b15--15------
B|----------------------------------17--
G|--------------------------------------
D|--------------------------------------
A|--------------------------------------
E|--------------------------------------



E|--13b15--13-------------
B|-------------15---------
G|-----------------14/12--
D|------------------------
A|------------------------
E|------------------------
http://www.guitartabcreator.com
Guitar Tab Creator is intended to store guitar tab created through the tool. It currently does not support in-line text editing. Any text you place in here will be lost. If you need to comment on your tab, please use the "Tab Notes" section located below.