Blue Sky - The Allman Brothers

(/) Slide Up  (\) Slide Down  (h) Hammer On  (p) Pull Off  (b) Bend (r) Release (v) Vibrato

E|------------------------------------12----------------------------------------
B|----------------------------12--14------14-------------------9----------------
G|------------------9--11/13------------------11b--9--------9-----11--9---------
D|-----------9--11-------------------------------------------------------11--9--
A|--7--9/11---------------------------------------------------------------------
E|------------------------------------------------------------------------------



E|--------------------------------------------
B|--------------------------------------------
G|--11/13--13/11--9--11---------9--11b11b--9--
D|-----------------------9--11----------------
A|--------------------------------------------
E|--------------------------------------------
http://www.guitartabcreator.com
Guitar Tab Creator is intended to store guitar tab created through the tool. It currently does not support in-line text editing. Any text you place in here will be lost. If you need to comment on your tab, please use the "Tab Notes" section located below.