Revelation Song


First Ending
E|----------------------------|-------------|-
B|-8---10\6---6-8-6---6-8-6---|-6---8\4-----|-
G|------------------8-------8-|-----------8-|-
D|----------------------------|-------------|-
A|----------------------------|-------------|-
E|----------------------------|-------------|-


Second Ending
E|-----------------------------------------------|-
B|-8---9\6-6-6-8-6---6-8-6---6-8\4-4-4-----------|-
G|-----------------8-------8-----------6-6-6-5-3-|-
D|-----------------------------------------------|-
A|-----------------------------------------------|-
E|-----------------------------------------------|-


Second Ending Cont.
E|--------------------------------|-----
B|--------------------------------|-----
G|--3-----------------------------|-----
D|-----6--5--6--5--6--5--6--5--6--|--8--
A|--------------------------------|-----
E|--------------------------------|-----
http://www.guitartabcreator.com
Guitar Tab Creator is intended to store guitar tab created through the tool. It currently does not support in-line text editing. Any text you place in here will be lost. If you need to comment on your tab, please use the "Tab Notes" section located below.