Zarnakand

(/) Slide Up  (\) Slide Down  (h) Hammer On  (p) Pull Off  (b) Bend (r) Release (v) Vibrato
E|------------------------|---------------------------------------------
B|------------------7--8--|--7--------------5--7------------------------
G|--9------------9--------|--------------7------------------------------
D|------------9-----------|-----------7-----------9--9--9--9--7--12-----
A|-----7--10--------------|-----5--9---------------------------------9--
E|------------------------|---------------------------------------------



E|--------------------------|--------------------------------------
B|--------------------------|--------------------------------------
G|------------------12------|--9-----9--11--12--11--9--7--9--7-----
D|--14--14--14--12----------|-----9-----------------------------9--
A|----------------------15--|--------------------------------------
E|--------------------------|--------------------------------------



E|-------------------------------------------|--------------------------------------
B|-------------------------------------------|--------------------------------------
G|--9-----9--11--12--11--12--14--12--14--16--|--9-----9--11--12--11--9--7--9--7-----
D|-----9-------------------------------------|-----9-----------------------------9--
A|-------------------------------------------|--------------------------------------
E|-------------------------------------------|--------------------------------------



E|-----------------------------------------
B|-----------------------------------------
G|-----------------------7-----------------
D|--5--7--9--9--9--9--7-----5--5--4--------
A|-----------------------------------5--7--
E|-----------------------------------------
http://www.guitartabcreator.com
Guitar Tab Creator is intended to store guitar tab created through the tool. It currently does not support in-line text editing. Any text you place in here will be lost. If you need to comment on your tab, please use the "Tab Notes" section located below.