Breaking Point

(/) Slide Up  (\) Slide Down  (h) Hammer On  (p) Pull Off  (b) Bend (r) Release (v) Vibrato

E|-----------------------------
B|-----------------------------
G|-----------------------------
D|--1--2--7--1--2--7--1--2--7--
A|--1--2--7--1--2--7--1--2--7--
E|--1--2--7--1--2--7--1--2--7--



E|--------------------------------------------------------------------------------
B|--------------------------------------------------------------------------------
G|--------------------------------------------------------------------------------
D|-----------------------------------------------9-----------------------------3--
A|--9--------9--------7--------5--------9--------7--7--------5--------9--------3--
E|--7--7--7--7--7--7--5--7--7--3--7--7--7--7--7-----5--5--5--3--5--5--7--5--5--1--



E|-----------------------------------------------
B|-----------------------------------------------
G|-----------------------4--4--4--5--5--5--3--3--
D|--3--3--3--5--5--5--5--4--4--4--5--5--5--3--3--
A|--3--3--3--5--5--5--5--2--2--2--3--3--3--1--1--
E|--1--1--1--3--3--3--3--------------------------
http://www.guitartabcreator.com
Guitar Tab Creator is intended to store guitar tab created through the tool. It currently does not support in-line text editing. Any text you place in here will be lost. If you need to comment on your tab, please use the "Tab Notes" section located below.