Song 2 (Demise)

(/) Slide Up  (\) Slide Down  (h) Hammer On  (p) Pull Off  (b) Bend (r) Release (v) Vibrato


E|------------------------------------
B|------------------------------------
G|------------------------------------
D|------------------------------------
A|--7---------------------------------
E|-----8--7--5--7--8--7--8--10--8--7--



E|------------
B|------------
G|------------
D|------------
A|--9--7--10--
E|--7--5--8---



E|--------------------------------------------------------
B|--------------------------------------------------------
G|--------------------------------------------------------
D|--------------------------------------------------------
A|--9--7--6-----------5-----------4-----------3-----------
E|--7--5--4--0--0--0--3--0--0--0--2--0--0--0--1--0--0--0--



E|-----------------------------------------
B|-----------------------------------------
G|-----------------------------------------
D|--------------------------------------3--
A|--2-----------3-----------2-----------1--
E|--0--0--0--0--1--0--0--0--0--0--0--0-----



E|--------------------------
B|--------------------------
G|--------------------------
D|--------------------------
A|-----8--7--5-----8--7--5--
E|--5-----------8-----------



E|-----------
B|-----------
G|-----------
D|-----------
A|--4--5--4--
E|--2--3--2--



E|--------
B|--------
G|--------
D|--------
A|--7--5--
E|--5--3--
http://www.guitartabcreator.com
Guitar Tab Creator is intended to store guitar tab created through the tool. It currently does not support in-line text editing. Any text you place in here will be lost. If you need to comment on your tab, please use the "Tab Notes" section located below.