Song 1

(/) Slide Up  (\) Slide Down  (h) Hammer On  (p) Pull Off  (b) Bend (r) Release (v) Vibrato

E|--------------
B|--------------
G|--------------
D|--4-----------
A|--2--5--7--4--
E|-----3--5--2--



E|---------
B|---------
G|---------
D|--9--10--
A|--7--8---
E|---------



E|---------
B|---------
G|--9--10--
D|---------
A|--7--8---
E|---------



E|--------------
B|--------------
G|--------------
D|--------------
A|--9--5--7--9--
E|--7--3--5--7--



E|--------------
B|--------------
G|--------------
D|--------------
A|--9--5--7--4--
E|--7--3--5--2--
http://www.guitartabcreator.com
Guitar Tab Creator is intended to store guitar tab created through the tool. It currently does not support in-line text editing. Any text you place in here will be lost. If you need to comment on your tab, please use the "Tab Notes" section located below.