120201a

(/) Slide Up  (\) Slide Down  (h) Hammer On  (p) Pull Off  (b) Bend (r) Release (v) Vibrato

E|--0--0--0--0--
B|--0--0--0--0--
G|--4--6--6--4--
D|--2--6--6--4--
A|--2--4--0-----
E|--0--------4--



E|--0--0--0--0--0--0--0--0--0--0--0--0--0--0--0--0--
B|--3--0--0--0--3--0--0--0--0--0--3--3--0--3--0--0--
G|--4--7--6--6--4--7--6--4--5--5--4--4--5--5--4--4--
D|--4--7--6--6--4--7--6--4--5--5--4--4--5--5--4--4--
A|--------0--4--------0-----3--3--------3--0--2--2--
E|--3--7--------3--7-----4--------3--3--------------
http://www.guitartabcreator.com
Guitar Tab Creator is intended to store guitar tab created through the tool. It currently does not support in-line text editing. Any text you place in here will be lost. If you need to comment on your tab, please use the "Tab Notes" section located below.