Porcupine-esque

(/) Slide Up  (\) Slide Down  (h) Hammer On  (p) Pull Off  (b) Bend (r) Release (v) Vibrato
E|------------------|-------------------|------------------|-------------------|-
B|------------------|-------------------|------------------|-------------------|-
G|------------------|-------------------|------------------|-------------------|-
D|------0-----------|------0------------|------0-----------|------0------------|-
A|---------0-----3--|----------0-----3--|---------0-----3--|---------0-----3h5-|-
E|-0--0------3h4----|-0--0-------3h4----|-0--0------3h4----|-0--0------3h4-----|-



E|----------------|------------------|------------------|-------------------|-
B|----------------|------------------|------------------|-------------------|-
G|----------0-----|------------0-----|------------------|-------------------|-
D|-----3-------3--|-------3-------3--|------0-----------|------0------------|-
A|-1------1-------|-1/4------4-------|---------0-----3--|---------0-----3h5-|-
E|----------------|------------------|-0--0------3h4----|-0--0------3h4-----|-



E|----------------|----------------|----------------|----------------|---
B|----------------|----------------|----------------|----------------|---
G|----------0-----|----------2-----|----------0-----|----------------|---
D|-----3-------3--|-----3-------3--|-----7-------3--|-----2----3--0--|---
A|-1------1-------|-4------4-------|-5------5-------|-3------3-------|---
E|----------------|----------------|----------------|----------------|---



E|---------------------------|---------------------------|--
B|---------------------------|---------------------------|--
G|---------0-----------------|---------------------------|--
D|-----------------3----0----|----------0-------3b--0----|--
A|--1-----------1------------|--4v-----------4-----------|--
E|---------------------------|---------------------------|--
http://www.guitartabcreator.com
Guitar Tab Creator is intended to store guitar tab created through the tool. It currently does not support in-line text editing. Any text you place in here will be lost. If you need to comment on your tab, please use the "Tab Notes" section located below.