Who Says - John Mayer

(/) Slide Up  (\) Slide Down  (h) Hammer On  (p) Pull Off  (b) Bend (r) Release (v) Vibrato

Verse: Who says I can't get stoned

E|--------------------------------
B|--3--3--3--3--3--3--3--3--3--3--
G|--2--------------2--2--------2--
D|--------------2-----------2-----
A|-----------2-----2--------------
E|--x--3--2----------h2--3--------



Bridge: It's been a long night

E|--------------------------------------
B|--3--3--3--3--3--3--3--3--2--3--3--3--
G|-----------------------------2--------
D|--------2--------2--------2--------2--
A|--------------------------1--2--2-----
E|--3--2-----3--2-----3--2--------------
Guitar Tab Creator is intended to store guitar tab created through the tool. It currently does not support in-line text editing. Any text you place in here will be lost. If you need to comment on your tab, please use the "Tab Notes" section located below.