The Pocket - Andy Grammer

(/) Slide Up  (\) Slide Down  (h) Hammer On  (p) Pull Off  (b) Bend (r) Release (v) Vibrato


E|--3--------3--
B|--3--2--3--3--
G|-----3--------
D|-----3--3--2--
A|--------3--3--
E|--3-----x-----



E|--3--3--3--3--
B|--3--3--3--3--
G|--------------
D|--2--2--2-----
A|--2--3--2-----
E|-----------2--



E|--
B|--
G|--
D|--
A|--
E|--
http://www.guitartabcreator.com
Guitar Tab Creator is intended to store guitar tab created through the tool. It currently does not support in-line text editing. Any text you place in here will be lost. If you need to comment on your tab, please use the "Tab Notes" section located below.