BWM

(/) Slide Up  (\) Slide Down  (h) Hammer On  (p) Pull Off  (b) Bend (r) Release (v) Vibrato


E|----------------------------------------------------------------------------
B|----------------------------------------------------------------------------
G|----------------------------------------------------------------------------
D|-------------2h4--2--0-----------0h2--0-------------2h4--2--0---------------
A|--0h2-------------------0----------------4--0h2--2-------------0----1-------
E|----------------------------------------------------------------------------



E|--------------------------------------------------------------------
B|--------------------------------------------------------------------
G|--------------------------------------------------------------------
D|-----------------------------------------------------0h2------------
A|--5----5------5\3--3--3/5\2------2----0----2--------------0h2/5-----
E|------------------------------------------------0h2-----------------



E|---------------------------------------------------------------------------
B|---------------------------------------------------------------------------
G|---------------------------------------------------------------------------
D|------------2h4--2--0------------0h2--0-------------2h4--2--0--------2--2--
A|--0h2----2-------------0----0------------4--0h2--2-------------0--0--1--1--
E|---------------------------------------------------------------------------



E|----------------------------------------
B|----------------------------------------
G|----------------------------------------
D|---------0--2-------2--0----------0--2--
A|--0h2-----------------------------------
E|---------------3h5--------0h2--2--------



E|--------------------------------------------------------
B|--------------------------------------------------------
G|--------------------------------------------------------
D|-------0-------2h4----------------0h2--0----------0-----
A|--0h2-----2---------0h2--4--0-------------4--0h2-----2--
E|-------------------------------0------------------------



E|-------------------------------------------------------------------------------------
B|-------------------------------------------------------------------------------------
G|-------------------------------------------------------------------------------------
D|-------0-------2h4--2--0----------------0h2--0----------0-----2h4--2--0--------2--2--
A|--0h2-----2---------------0h2--4--0-------------4--0h2-----2-------------0--0--1--1--
E|-------------------------------------0-----------------------------------------------



E|--------------------------------------------------------------
B|--------------------------------------------------------------
G|--------------------------------------------------------------
D|--------------------------------------------------------------
A|-------------5--7----------7--5----------5--7-----------7--5--
E|--5h7--7--7--------3h5--5--------0h2--2--------3--3--3--------
http://www.guitartabcreator.com
Guitar Tab Creator is intended to store guitar tab created through the tool. It currently does not support in-line text editing. Any text you place in here will be lost. If you need to comment on your tab, please use the "Tab Notes" section located below.