PICK ME UP

(/) Slide Up  (\) Slide Down  (h) Hammer On  (p) Pull Off  (b) Bend (r) Release (v) Vibrato


capo 4

standard tuning

VERSE 1
E|----------------------------------
B|----------3---------------3-------
G|------0-----0---0-----2-----2---0-
D|----2---------2-----0---------0---
A|------------------------3---------
E|--0-----0---------2--------------- REPEAT 3 TIMES


E|-----------------------------3----
B|--0-------3-------2-----3----3----
G|------0-----0---0-----2----0-0----
D|----2---------2-----0------0-0----
A|----------------------------------
E|--0-----0---------2-----3---------

PRE- CHORUS

Am7 SLIDE UP 2 FRETS
Am7 SLIDE UP 2 FRETS
Am7 SLIDE UP 2 FRETS
Am7 SLIDE UP 2 FRETS

CHORUS
G, Cadd9
G, Cadd9
G, Cadd9
D/F x2
G x2

VERSE 2

Em7, D/F, Cadd9
Em7, D/F, Cadd9
Em7, D/F, Cadd9
Em7, D/F, Gx2

PRE-CHORUS

CHORUS

BRIDGE

F, C, G
F, C, G
F, C, (Am, Fm, C)
D/F

CHORUS x2

END
Guitar Tab Creator is intended to store guitar tab created through the tool. It currently does not support in-line text editing. Any text you place in here will be lost. If you need to comment on your tab, please use the "Tab Notes" section located below.