HUMBLE

(/) Slide Up  (\) Slide Down  (h) Hammer On  (p) Pull Off  (b) Bend (r) Release (v) Vibrato



TUNING: CFCGGc

verse 1



E|--2-------2-----4-------4-----2--------2-----5-------4-----
B|------0-------0-----0-------0------0-------0-----0-------0-
G|----0-------0-----0-------0-----0--------0-----0-------0---
D|--0-----0-------0-----0-------0------0-------0-----0-------
A|-----------------------------------------------------------
E|-----------------------------------------------------------


E|--0-------0-----0-------0-----0--------0-----0-------0-----
B|------0-------0-----0-------0------0-------0-----0-------0-
G|----0-------0-----0-------0-----0--------0-----0-------0---
D|--------0-------------0--------------0-------------0-------
A|--0-------------0-------------4--------------2-------------
E|----------------------------------------------------------- repeat twice



E|--0-------0-----0-------0-----0--------0-----0-------0-----
B|------0-------0-----0-------0------0-------0-----0-------0-
G|----0-------0-----0-------0-----0--------0-----0-------0---
D|--------0-------------0--------------0-------------0-------
A|--0-------------0-------------0--------------0-------------
E|-----------------------------------------------------------


verse 2



E|--2-------2-----4-------4-----2--------2-----5-------4-----
B|------0-------0-----0-------0------0-------0-----0-------0-
G|----0-------0-----0-------0-----0--------0-----0-------0---
D|--0-----0-------0-----0-------0------0-------0-----0-------
A|-----------------------------------------------------------
E|-----------------------------------------------------------


E|--0-------0-----0-------0-----0--------0-----0-------0-----
B|------0-------0-----0-------0------0-------0-----0-------0-
G|----0-------0-----0-------0-----0--------0-----0-------0---
D|--------0-------------0--------------0-------------0-------
A|--0-------------0-------------4--------------2-------------
E|----------------------------------------------------------- repeat twice



E|--0-------0-----0-------0-----0--------0-----0-------0-----
B|------0-------0-----0-------0------0-------0-----0-------0-
G|----0-------0-----0-------0-----0--------0-----0-------0---
D|--------0-------------0--------------0-------------0-------
A|--0-------------0-------------0--------------0-------------
E|-----------------------------------------------------------

chorus



E|--4-------0-----7-------0-----4--------0-----7-------0-----7----2----
B|------0-------0-----0-------0------0-------0-----0-------0----0-----0
G|----0-------0-----0-------0-----0--------0-----0-------0----0-----0--
D|--------0-------------0--------------0-------------0-----------------
A|--4-------------7-------------4--------------7-------------7----2----
E|---------------------------------------------------------------------


E|--2/4----2------0-------0-----2/4------2-----0-------0-----
B|------0-------0-----0-------0------0-------0-----0-------0-
G|----0-------0-----0-------0-----0--------0-----0-------0---
D|--0-----0-------0-----0-------0------0-------0-----0-------
A|-----------------------------------------------------------
E|-----------------------------------------------------------


E|--4-------0-----7-------0-----4--------0-----7-------0-----7----2----
B|------0-------0-----0-------0------0-------0-----0-------0----0-----0
G|----0-------0-----0-------0-----0--------0-----0-------0----0-----0--
D|--------0-------------0--------------0-------------0-----------------
A|--4-------------7-------------4--------------7-------------7----2----
E|---------------------------------------------------------------------


E|--2/4----2------0-------0-----2/4------2-----7-------5-----
B|------0-------0-----0-------0------0-------0-----0-------0-
G|----0-------0-----0-------0-----0--------0-----0-------0---
D|--0-----0-------0-----0-------0------0-------0-----0-------
A|-----------------------------------------------------------
E|-----------------------------------------------------------


E|--0-------0-----0-------0-----0--------0-----0-------0-----
B|------0-------0-----0-------0------0-------0-----0-------0-
G|----0-------0-----0-------0-----0--------0-----0-------0---
D|--------0-------------0--------------0-------------0-------
A|--4-------------2-------------0--------------0-------------
E|-----------------------------------------------------------


verse 3
(same as verse 2)


bridge




E|--4-------4-----0-------0-----2--------2-----0h2-----0-----
B|------0-------0-----0-------0------0-------0-----0-------0-
G|----0-------0-----0-------0-----0--------0-----0-------0---
D|--------0-------------0--------------0-------------0-------
A|--0-------------0-------------2--------------2-------------
E|----------------------------------------------------------- repeat twice



chorus
(same as before)


outro



E|--0-------0-----0-------0-----0--------0-----0-------0-----0
B|------0-------0-----0-------0------0-------0-----0-------0--
G|----0-------0-----0-------0-----0--------0-----0-------0----
D|--------0-------------0--------------0-------------0-------0
A|--0-------------0-------------0--------------0--------------
E|------------------------------------------------------------ LET LAST NOTE RING OUT


http://www.guitartabcreator.com
Guitar Tab Creator is intended to store guitar tab created through the tool. It currently does not support in-line text editing. Any text you place in here will be lost. If you need to comment on your tab, please use the "Tab Notes" section located below.