Practice: Linkin Park

(/) Slide Up  (\) Slide Down  (h) Hammer On  (p) Pull Off  (b) Bend (r) Release (v) Vibrato
E|--------------3----2--------------3----2----
B|---------1---------3---------1---------3----
G|-------------------2-------------------2----
D|----2----2--------------2----2--------------
A|----2----3----2----x----2----3----2----x----
E|---------x----3----x---------x----3----x----



E|---------2---------3---------2----
B|----1----3--------------1----3----
G|---------2-------------------2----
D|----2---------2---------2---------
A|----3----x----2----2----3----x----
E|----x----x---------3----x----x----



E|--------3--2--------3--2-----
B|-----1-----3-----1-----3-----
G|-----------2-----------2-----
D|--2--2--------2--2--------2--
A|--2--3--2--x--2--3--2--x--2--
E|-----x--3--x-----x--3--x-----
http://www.guitartabcreator.com
Guitar Tab Creator is intended to store guitar tab created through the tool. It currently does not support in-line text editing. Any text you place in here will be lost. If you need to comment on your tab, please use the "Tab Notes" section located below.