Rock of Ages

(/) Slide Up  (\) Slide Down  (h) Hammer On  (p) Pull Off  (b) Bend (r) Release (v) Vibrato


E|-----------------------------------
B|-----------------------------------
G|-----------2-----------4--2--2-----
D|-----------------------------------
A|--4--5--7-----4--5--7-----------7--
E|-----------------------------------



E|--------------------------------
B|--------------------------------
G|-----0-----2-----0-----4--2--2--
D|--4-----4-----4-----4-----------
A|--------------------------------
E|--------------------------------



E|-----------------------------------------------------------------------
B|-----------------------------------------------------------------------
G|--1--2--1-----------1--2--1--4--------2--2--2--4--6--7--6--2--4--2-----
D|-----------4-----------------------4--------------------------------4--
A|--------------7--7--------------7--------------------------------------
E|-----------------------------------------------------------------------



E|--------------------------------
B|--------------------------------
G|--------2--4--------2--6--4--2--
D|-----4-----------4--------------
A|--7-----------7-----------------
E|--------------------------------



E|-----------------------------------
B|-----------------------------------
G|-----2--6--2--6--4--4--2--4--4----- X3
D|--4--------------------------------
A|-----------------------------------
E|-----------------------------------



E|--------------------------------
B|--------------------------------
G|--------2--4--------2--6--4--2--
D|-----4-----------4--------------
A|--7-----------7-----------------
E|--------------------------------



E|--------------------------------
B|--------------------------------
G|--------2--4--------2--6--4--2-- X3
D|-----4-----------4--------------
A|--7-----------7-----------------
E|--------------------------------
http://www.guitartabcreator.com
Guitar Tab Creator is intended to store guitar tab created through the tool. It currently does not support in-line text editing. Any text you place in here will be lost. If you need to comment on your tab, please use the "Tab Notes" section located below.