Oasis - Wonderwall

(/) Slide Up  (\) Slide Down  (h) Hammer On  (p) Pull Off  (b) Bend (r) Release (v) Vibrato
E|--5--5--5--5--
B|--5--5--5--5--
G|--------4--4--
D|--4--------4--
A|--4--4--------
E|-----5--------



E|--5--5--5--5--5--5--5--5--5--5--5--5--
B|--5--5--5--5--5--5--5--5--5--5--5--5--
G|-----4--------4--------4-----------4--
D|--4-----4--4-----4--4-----------4--4--
A|--5-----4--5-----4--5-----4-----4-----
E|--------------------------5--4--------



E|--5--5--5--5--5--
B|--5--5--5--5--5--
G|-----------------
D|--4--4-----4--4--
A|--5--4--4--5--4--
E|--------5--------
http://www.guitartabcreator.com
Guitar Tab Creator is intended to store guitar tab created through the tool. It currently does not support in-line text editing. Any text you place in here will be lost. If you need to comment on your tab, please use the "Tab Notes" section located below.