Link Wray - Rumble

(/) Slide Up  (\) Slide Down  (h) Hammer On  (p) Pull Off  (b) Bend (r) Release (v) Vibrato
E|--2--2-----2--2-----2--2-----2--2-----2--2-----
B|--3--3-----3--3--2--3--3--2--3--3-----3--3-----
G|--2--2--1--2--2--1--2--2--2--2--2--1--2--2-----
D|--------2--------2--------2--------2-----------
A|--------2--------2-----------------2-----------
E|-----------------------------------------------



E|--------------2------3--0----------------------------
B|-----------0---------------3--0----------------------
G|--------2------------------------2--0----------------
D|-----1---------------------------------2--0----------
A|--2------------------------------------------2--0----
E|---------------------------------------------------3b



E|-----
B|-----
G|--1--
D|--2--
A|--2--
E|-----
http://www.guitartabcreator.com
Guitar Tab Creator is intended to store guitar tab created through the tool. It currently does not support in-line text editing. Any text you place in here will be lost. If you need to comment on your tab, please use the "Tab Notes" section located below.