The Hollies - Long Cool Woman in a Black Dress

(/) Slide Up  (\) Slide Down  (h) Hammer On  (p) Pull Off  (b) Bend (r) Release (v) Vibrato


E|-----------------------------------------------
B|-----------------------------------------------
G|-----------------------0--4-----0-----0--------
D|----------0h2/5--5--4--------2-----0--------0--
A|-----0h2---------------------------------2-----
E|--0--------------------------------------------



E|--------------------------------------------
B|--------------------------------------------
G|--------------------------------------------
D|--------0--------0--------0--------0--------
A|-----2--------0--------2--------4-----------
E|--3--------2--------3--------5--------3--2--



E|-----------------------------------------------------------------
B|-----------------------------------------------------------------
G|-----------------------------------------------------------------
D|-----------------------2h4h5p4--2--2h4h5p4-----------------------
A|--2h4h5p4--2--2h4h5p4-----------------------2h4h5p4--2--2h4h5p4--
E|-----------------------------------------------------------------
http://www.guitartabcreator.com
Guitar Tab Creator is intended to store guitar tab created through the tool. It currently does not support in-line text editing. Any text you place in here will be lost. If you need to comment on your tab, please use the "Tab Notes" section located below.