Cream - Sunshine of Your Love (Eric Clapton)

(/) Slide Up  (\) Slide Down  (h) Hammer On  (p) Pull Off  (b) Bend (r) Release (v) Vibrato


E|----------------------------------------------
B|------------------------------12--10----------
G|------------------------------12--10----------
D|--------------------------------------12v-----
A|--12--12--10--12--12--11--10------------------
E|--10--10--8---10------------------------------



E|-------------------------------------------
B|-------------------------------------------
G|-------------------------------------------
D|--12--12--10--12--12--11--10---------------
A|--10--10--8---10--------------10--12v--10--
E|-------------------------------------------



E|--------------------------------------------
B|------------------------------12--10--------
G|------------------------------12--10v-------
D|---------------------------------------12v--
A|--12--12--10--12--12--11--10----------------
E|--10--10--8---10----------------------------



E|-----------------------------------------------------
B|-----------------------------------------------------
G|-----------------------------------------------------
D|-----------------------------------------------------
A|--7----7--7----10----5----7----7--7----10----5-------
E|--5----5--5----8-----3----5----5--5----8-----3-------



E|--------------------------------------------------
B|--------------------------------------------------
G|--------------------------------------------------
D|--------------------------------------------------
A|--7--7--7--7--7--7--7--7--7--7--7--7--7--7--7--7--
E|--5--5--5--5--5--5--5--5--5--5--5--5--5--5--5--5--



E|-------------------------------------------
B|-------------------------------------------
G|-------------------------------------------
D|-------------------------------------------
A|--12--12--10--12--12--11--10---------------
E|--10--10--8---10--------------10--13v--10--
http://www.guitartabcreator.com
Guitar Tab Creator is intended to store guitar tab created through the tool. It currently does not support in-line text editing. Any text you place in here will be lost. If you need to comment on your tab, please use the "Tab Notes" section located below.