Guitar Boogie 1

(/) Slide Up  (\) Slide Down  (h) Hammer On  (p) Pull Off  (b) Bend (r) Release (v) Vibrato


E|--------------5--5--5--7--0--0--0--0--0--------4--------3--------2-----0--|---------------------
B|--12--12--12--5--5--5--7--0--0--0--0--0--------------------------------0--|---------------------
G|--------------6--6--6--8--1--1--1--1--1--4--4-----4--3-----3--2-----0--1--|---------------------
D|--------------7--7--7--9--2--2--2--2--2--------------------------------2--|---------------------
A|--------------7--7--7--9--2--2--2--2--2--------------------------------2--|---------------------
E|--------------5--5--5--7--0--0--0--0--0--------------------------------0--|---------------------



E|----------0-------------------------------------0-----------------------------|------------------
B|-------3-------------------------------------3--------------------------------|------------------
G|--2/4--------4\2p0----------------2-----2/4--------4\2p0----------------2-----|------------------
D|--------------------2p0--2--2--0--2--2--------------------2p0--2--2--0--2--2--|------------------
A|----------------------------2--2--0--2----------------------------2--2--0--2--|------------------
E|----------------------------0--3-----0----------------------------0--3-----0--|------------------



E|----------0--------------------------------------0-----------------------------|------------------
B|-------3------------------------1--3----------3--------------------------------|------------------
G|--2/4--------4\2p0-----0--2--2--0--2--2--2/4--------4\2p0----------------2-----|------------------
D|--------------------2--------2--2--0--2--------------------2p0--2--2--0--2--2--|------------------
A|-----------------------------0--3-----0----------------------------2--2--0--2--|------------------
E|-------------------------------------------------------------------0--3-----0--|------------------



E|----------0-------------------------------------0-----------------------------|--------------------
B|-------3-----------------------3-------------3--------------------------------|--------------------
G|--2\4--------4\2p0----------4--2--2--2--2/4--------4\2p0----------------2-----|--------------------
D|--------------------2p0-----4--0--2--2--------------------2p0--2--2--0--2--2--|--------------------
A|-------------------------2--2-----0--0----------------------------2--2--0--2--|--------------------
E|------------------------------------------------------------------0--3-----0--|--------------------



E|--------4--------3--------2-----0--7--7----------------------------|-----------------------------
B|--------------------------------0--8--8-------------------------1--|-----------------------------
G|--4--4-----4--3-----3--2-----0--1--------9--7--9--7-------------0--|-----------------------------
D|--------------------------------2--------------------9\7--5--0--2--|-----------------------------
A|--------------------------------2----------------------------2--2--|-----------------------------
E|--------------------------------0----------------------------3--0--|-----------------------------



E|--7--7--------2--0-------------------|------------------------------------------------------------
B|--8--8--------1--0--3--2--0----------|------------------------------------------------------------
G|--------9--7--0-----3--2--0----------|------------------------------------------------------------
D|-----------------------------2p0-----|------------------------------------------------------------
A|----------------------------------2--|------------------------------------------------------------
E|-------------------------------------|------------------------------------------------------------



E|--
B|--
G|--
D|--
A|--
E|--



E|--
B|--
G|--
D|--
A|--
E|--



E|--
B|--
G|--
D|--
A|--
E|--
http://www.guitartabcreator.com
Guitar Tab Creator is intended to store guitar tab created through the tool. It currently does not support in-line text editing. Any text you place in here will be lost. If you need to comment on your tab, please use the "Tab Notes" section located below.