Smooth Intro by Santana (feat Rob Thomas)

(/) Slide Up  (\) Slide Down  (h) Hammer On  (p) Pull Off  (b) Bend (r) Release (v) Vibrato


E|-------------------|-------------------------------------------|-----
B|-------8-----8h10--|--9--10--12--12b13--10--12--12b13--10--10--|-----
G|--7h9-----9--------|-------------------------------------------|-----
D|-------------------|-------------------------------------------|-----
A|-------------------|-------------------------------------------|-----
E|-------------------|-------------------------------------------|-----



E|----------------------------------------------
B|------------8---------------------------------
G|--7b9--7b9-----9r7--5--7p5\4------------------
D|------------------------------7--6--7--7/9\7--
A|----------------------------------------------
E|----------------------------------------------
http://www.guitartabcreator.com
Guitar Tab Creator is intended to store guitar tab created through the tool. It currently does not support in-line text editing. Any text you place in here will be lost. If you need to comment on your tab, please use the "Tab Notes" section located below.