Into The Night by Santana (feat. Chad Kroeger)

(/) Slide Up  (\) Slide Down  (h) Hammer On  (p) Pull Off  (b) Bend (r) Release (v) Vibrato


E|----------------|----------------|-----
B|----------------|----------------|-----
G|--5--5p4--------|--5--7--7/9--7--|-----
D|----------7--5--|----------------|-----
A|----------------|----------------|-----
E|----------------|----------------|-----



E|------------------------------------
B|-------8--10--10b10r8--10-----------
G|--0/9----------------------7--5--5--
D|------------------------------------
A|------------------------------------
E|------------------------------------



E|----------------------------------------------------
B|-----------5--8/10--10-----------15--15--13--10--10-
G|--------5---------------7--7--7---------------------
D|-----7---------------------------12--12--10--7---7-\
A|--7-------------------------------------------------
E|----------------------------------------------------
http://www.guitartabcreator.com
Guitar Tab Creator is intended to store guitar tab created through the tool. It currently does not support in-line text editing. Any text you place in here will be lost. If you need to comment on your tab, please use the "Tab Notes" section located below.