Johnny b goode

(/) Slide Up  (\) Slide Down  (h) Hammer On  (p) Pull Off  (b) Bend (r) Release (v) Vibrato


E|-------------5-6--6--6--5-6--6--6--5-6--6--6-----------------------------------------------
B|-------6--8--5/6--6--6--5/6--6--6--5/6--6--6--9--8--6--------------------------------------
G|--6h7---------------------------0----------------------6--7--------------------------------
D|-------------------------------------------------------------8--6--8--8--8--8--8--8--8--8--
A|-------------------------------------------------------------------8--8--8--8--8--8--8--8--
E|-------------------------------------------------------------------------------------------



E|-----------------------------6-------6-----------8--6-----------------
B|-----6--8--6-----------------6----------9--8--6--------9--8--6-----6--
G|--7-----------5--3--------8-----8b9-----------------------------8--7--
D|--------------------5--3-------------------------------------------7--
A|----------------------------------------------------------------------
E|----------------------------------------------------------------------



E|--6----------------------------
B|-----9--8--6-------6--8--6-----
G|--------------8b9-----8--7-----
D|----------------------------8--
A|-------------------------------
E|-------------------------------
http://www.guitartabcreator.com
Guitar Tab Creator is intended to store guitar tab created through the tool. It currently does not support in-line text editing. Any text you place in here will be lost. If you need to comment on your tab, please use the "Tab Notes" section located below.