Hotel California by The Eagles

(/) Slide Up  (\) Slide Down  (h) Hammer On  (p) Pull Off  (b) Bend (r) Release (v) Vibrato


E|--7--------------------7----------|--9--------------9-----------|--
B|--7-----------7-------------------|--7--------7-----------7-----|--
G|--7-----7-----------7-------7--9--|--9-----9-----9-----9--------|--
D|--9--9-----9-----9----------------|--8--8--------------------8--|--
A|--9-------------------------------|-----------------------------|--
E|--7-------------------------------|-----------------------------|--



E|--7----------------7-----------------------------|--
B|--10--------10-----------10--------10--------10--|--
G|--9------9------9-----9---------9---------9------|--
D|--7---7----------------------7-------------------|--
A|---------------------------------------7---------|--
E|-------------------------------------------------|--



E|--7-------------------------7--
B|--7----------------7-----------
G|--7----------7-----------7-----
D|--9-------9-----9-----9--------
A|--11--11-----------------------
E|-------------------------------
Guitar Tab Creator is intended to store guitar tab created through the tool. It currently does not support in-line text editing. Any text you place in here will be lost. If you need to comment on your tab, please use the "Tab Notes" section located below.