Heavens Door End of 2nd solo

(/) Slide Up  (\) Slide Down  (h) Hammer On  (p) Pull Off  (b) Bend (r) Release (v) Vibrato
E|--14b16--14b16r14--14b16r14h12--14p12---------15------15------------------------------------
B|---------------------------------------15/17------17------17--17--13--15--12b13r12----------
G|------------------------------------------------------------------------------------12--11--
D|--------------------------------------------------------------------------------------------
A|--------------------------------------------------------------------------------------------
E|--------------------------------------------------------------------------------------------



E|---------------------
B|---------------------
G|--11b12r11--9--7-----
D|---------------------
A|---------------------
E|---------------------



E|----------
B|----------
G|--5p4-----
D|-------5--
A|----------
E|----------
http://www.guitartabcreator.com
Guitar Tab Creator is intended to store guitar tab created through the tool. It currently does not support in-line text editing. Any text you place in here will be lost. If you need to comment on your tab, please use the "Tab Notes" section located below.